música
Buscador

Acorde de Sangre De Reyes - Tierra Santa

Letra de Sangre De Reyes

INTRO:  

------------------------|-----------------------

------------------------|-----------------------

-7----3---------5-------|--7----3----------5----

-----------3------------|-------------3---------



--------------------------------------------------------------------------

--------------------------------------------------------------------------

-7-------------------------------------------------------------3----3-5-7-

--------------------------------------------------------------------------

Se fue buscando otro lugar, dejó su tierra y se marchó de allí



--------------------------------------------------------------------------

--------------------------------------------------------------------------

-7----------------------------------------------------------3-----5-------

--------------------------------------------------------------------------

Subió a su barco y navegó surcando mares donde nunca hay fin



--------------------------------------------------------------------------

--------------------------------------------------------------------------

--------------------3---------------5--7---------------3-------------5--7-

--------------------------------------------------------------------------

Y en la noche recuerda su amor implorando volver donde un día la dejó



-----------------------------

-----------------------------

-7---3----5-----7---3-----5--

--------3--------------3-----



--------------------------------------------------------------------------

--------------------------------------------------------------------------

-7-------------------------------------------------------------3----3-5-7-

--------------------------------------------------------------------------

Surcando el viento sobre el mar, veloz su barco atravesó la tempestad

--------------------------------------------------------------------------

--------------------------------------------------------------------------

-7----------------------------------------------------------3--------5----

--------------------------------------------------------------------------

http://atmosphereburglary.com/acordes/sangre-de-reyes-tierra-santa.php

Para luchar en un lugar, en una guerra en la que nunca quiso estar



-------------------------------------------------------------------------

-------------------------------------------------------------------------

--------------------3---------------5--7---------------3---------5----7--

-------------------------------------------------------------------------

Pero pronto la guerra acabará y un pensamiento su mente inundará

“Regresar a su hogar y abrazarla una vez más”



------------------------------------------------------------------

------------------------------------------------------------------

-3--------7-----5----------------------------7---------5-----3----

------------------------------------------------------------------

Sangre de reyes, por sus venas aún corre sangre azul



------------------------------------------------------------------

------------------------------------------------------------------

------7----------5---------------2-----------------5------3---7---

------------------------------------------------------------------

Sangre de reyes, que fluye entre los fieles que siguen a su rey



notas durante el solo

------------------------------------------------------------------|

------------------------------------------------------------------|

-7----3-5-7----3-5---------------------2-------------2------------|

--------------------5-----1-3-5-----1-3------0---5--------3----5--|



(notas de la intro y sigue la canción.)



Por fin la espera terminó y en el ambiente se respira la traición

De los que quieren usurpar, robar su trono y adueñarse de su hogar



Y en sus ojos la venganza brillará sembrando el miedo a su enemigo ha de matar

Y aunque llegue el final por sus venas correrá



Sangre de reyes, por sus venas aún corre sangre azul

Sangre de reyes, que fluye entre los fieles que siguen a su rey

Letra subida por: Anónimo

Discos en los que aparece este acorde: Sangre De Reyes , Las Mil Y Una Noches , 1997-2007

El acorde de Sangre De Reyes de Tierra Santa es una versión de la canción original realizada por colaboradores/usuarios de Coveralia.

¿Has encontrado algún error en esta página? Envíanos tu corrección del acorde